Nombre del artista: # A B C D E F G H I J K L M N Ñ O P Q R S T U V W X Y Z

Xuxa

Ilarie

Este es el tabulado de la versión original.

La canción se reproduce en el siguiente link:

http://www.youtube.com/watch?v=NrXTcaG4oso

Introducción:
G|---------------|------------|---------------|-------------|
D|---------------|------------|---------------|-------------|
A|----4h6p4h6p4--|------------|----4h6p4h6p4--|-------------|
E|-2-------------|-4----------|-4-------------|-2-----------|

G|---------------|------------|---------------|-----------------|
D|---------------|------------|-3-------------|------4-4-4-4-4--|
A|----4h6p4h6p4--|------------|---4b(1/2)-----|-----------------|
E|-2-------------|-4----------|-----------6-4-|-2---------------|

G|---------------|------------|---------------|-------------|
D|---------------|------------|---------------|-------------|
A|----4h6p4h6p4--|------------|----4h6p4h6p4--|-------------|
E|-2-------------|-4----------|-4-------------|-2-----------|

G|---------------|------------|---------------|---------------|
D|---------------|------------|-3-------------|---------------|
A|----4h6p4h6p4--|------------|---4b(1/2)-----|---------------|
E|-2-------------|-4----------|-----------6-4-|-2-------------|

Verso:
(Es la hora, es la hora…)
G|---------------|---------------|----------------|--------------|
D|--------3---6--|--------3---6--|----------------|--------------|
A|-4---4---------|-4---4---------|-----4-6-4-6-4--|--------1--2--|
E|---------------|---------------|-2--------------|-2---2--------|

G|---------------|---------------|------------|--------------|
D|--------3---6--|--------3---6--|------------|--------------|
A|-4---4---------|-4---4---------|-----1-2-3--|-4------------|
E|---------------|---------------|-2----------|--------------|

(Un saltito para el frente…)
G|---------------|---------------|----------------|--------------|
D|--------3---6--|--------3---6--|----------------|--------------|
A|-4---4---------|-4---4---------|-----4-6-4-6-4--|--------1--2--|
E|---------------|---------------|-2--------------|-2---2--------|

G|---------------|---------------|------------|--------------|
D|--------3---6--|--------3---6--|------------|--------------|
A|-4---4---------|-4---4---------|------------|--------------|
E|---------------|---------------|-2----------|--------------|

Coro:
(Ilari – lari – lari – e)
G|--------------|---------------|---------------|----------------|
D|--------------|--------3---6--|--------3---6--|----------------|
A|--------1--2--|-4---4---------|-4---4---------|--------1---4---|
E|-2---2--------|---------------|---------------|-2---2----------|

G|--------------|---------------|---------------|-----------------|
D|--------------|--------3---6--|--------3---6--|------2---3---4--|
A|--------1--2--|-4---4---------|-4---4---------|-----------------|
E|-2---2--------|---------------|---------------|-2------0---1----|

G|--------------|---------------|---------------|----------------|
D|--------------|--------3---6--|--------3---6--|----------4-----|
A|--------1--2--|-4---4---------|-4---4---------|----------------|
E|-2---2--------|---------------|---------------|-2---1h2-----1h-|

G|-----------------|---------------|---------------|----------------|
D|----4------------|--------3---6--|--------3---6--|----------------|
A|-----------1--2--|-4---4---------|-4---4---------|----------------|
E|-2------2--------|---------------|---------------|-2--------------|


Verso:
(Es la hora, es la hora…)
G|---------------|---------------|----------------|--------------|
D|--------3---6--|--------3---6--|----------------|--------------|
A|-4---4---------|-4---4---------|-----4-6-4-6-4--|--------1--2--|
E|---------------|---------------|-2--------------|-2---2--------|

G|---------------|---------------|------------|--------------|
D|--------3---6--|--------3---6--|------------|--------------|
A|-4---4---------|-4---4---------|-----1-2-3--|-4------------|
E|---------------|---------------|-2----------|--------------|

(Un saltito para el frente…)
G|---------------|---------------|----------------|--------------|
D|--------3---6--|--------3---6--|----------------|--------------|
A|-4---4---------|-4---4---------|-----4-6-4-6-4--|--------1--2--|
E|---------------|---------------|-2--------------|-2---2--------|

G|---------------|---------------|------------|-----------------|
D|--------3---6--|--------3---6--|------------|------2---3---4--|
A|-4---4---------|-4---4---------|------------|-----------------|
E|---------------|---------------|-2----------|--------0---1----|

Coro:
(Ilari – lari – lari – e)
G|--------------|---------------|---------------|----------------|
D|--------------|--------3---6--|--------3---6--|----------------|
A|--------1--2--|-4---4---------|-4---4---------|--------1---4---|
E|-2---2--------|---------------|---------------|-2---2----------|

G|--------------|------6--------6--------6-|---------------|
D|--------------|--------------------------|--------3---6--|
A|--------1--2--|-3h4------3h4------3h4----|-4---4---------|
E|-2---2--------|--------------------------|---------------|

G|-----------------|
D|------4----4-----|
A|-----------------|
E|-2----2-------2--|

G|--------------|---------------|---------------|----------------|
D|-4---4--------|--------3---6--|--------3---6--|----------------|
A|--------1--2--|-4---4---------|-4---4---------|--------1---4---|
E|--------------|---------------|---------------|-2---2----------|

G|--------------|---------------|---------------|-----------------|
D|--------------|--------3---6--|--------3---6--|------4-4-4-4-4--|
A|--------1--2--|-4---4---------|-4---4---------|-----------------|
E|-2---2--------|---------------|---------------|-2---------------|

Introducción

Verso:
(Es la hora, es la hora…)
G|---------------|---------------|----------------|--------------|
D|--------3---6--|--------3---6--|----------------|--------------|
A|-4---4---------|-4---4---------|-----4-6-4-6-4--|--------1--2--|
E|---------------|---------------|-2--------------|-2---2--------|

G|---------------|---------------|------------|--------------|
D|--------3---6--|--------3---6--|------------|--------------|
A|-4---4---------|-4---4---------|-----1-2-3--|-4------------|
E|---------------|---------------|-2----------|--------------|

(Un saltito para el frente…)
G|---------------|---------------|----------------|--------------|
D|--------3---6--|--------3---6--|----------------|--------------|
A|-4---4---------|-4---4---------|-----4-6-4-6-4--|--------1--2--|
E|---------------|---------------|-2--------------|-2---2--------|

G|---------------|---------------|------------|-----------------|
D|--------3---6--|--------3---6--|------------|------2---3---4--|
A|-4---4---------|-4---4---------|------------|-----------------|
E|---------------|---------------|-2----------|--------0---1----|

Coro:
(Ilari – lari – lari – e)
G|--------------|---------------|---------------|----------------|
D|--------------|--------3---6--|--------3---6--|----------4-----|
A|--------1--2--|-4---4---------|-4---4---------|----------------|
E|-2---2--------|---------------|---------------|-2---1h2-----1h-|

G|-----------------|---------------|---------------|-----------------|
D|----4------------|--------3---6--|--------3---6--|------2---3---4--|
A|-----------1--2--|-4---4---------|-4---4---------|-----------------|
E|-2------2--------|---------------|---------------|-2------0---1----|

G|--------------|---------------|---------------|----------------|
D|--------------|--------3---6--|--------3---6--|----------------|
A|--------1--2--|-4---4---------|-4---4---------|--------1---4---|
E|-2---2--------|---------------|---------------|-2---2----------|

G|--------------|---------------|---------------|-----------------|
D|--------------|--------3---6--|--------3---6--|------4-4-4-4-4--|
A|--------1--2--|-4---4---------|-4---4---------|-----------------|
E|-2---2--------|---------------|---------------|-2---------------|

Introducción

Coro (Acapella, sin bajo)

Coro (FADEOUT)

Tablatura de guitarra de Ilarie

(Xuxa). Todos los acordes y notas de la canción Ilarie de Xuxa, letras de canciones, etc. Subir una tablatura