Nombre del artista: # A B C D E F G H I J K L M N Ñ O P Q R S T U V W X Y Z

Wilfrido Vargas

Todo me gusta de tí

Quisiera dedicársela a alguien (a una compañera, a la vecina -que me
quiero borrar-, a la portuguesita de Caucagua, a la vecinita
de la Uni...) pero no se a quien especificamente. Bueno hermanos,
especialmente los caballeros, creo que ustedes no tendrán
problemas en dedicarle esta canción a quienes quieren y aman.
Asi que manos a la obra:

INTRO:

G -------------------------------|
D -8---8-------------------------|
A ---8---8--10---10------10---10-|
E -------------10---10-8----8----|

G ------------------------------------------|
D ---10---10--8---8----10-10------8---8-----|
A -8----8-------8---8--------8-8----8---8---|
E ----------------------------------------6-|

VERSOS (2 Veces)

("Me gusta mirar tus ojos, que aún no aprenden a mentir.."):
G ---------------------------------------|
D -10-10-----10-10------8---8---8---8----|
A -------8-8-------8-8----8---8---8---8--| (2 veces)
E ---------------------------------------|

("Me mirar tu pelo, cuando te lo enreda el viento..."):
G ------------------------------------|
D ---8---8--6---6------6---6---6---6--|
A -6---6------6---6--4---4---4---4----|
E ------------------------------------|

("Me gusta sentir tus manos y tu aliento..."):
G --------------------5---------|
D ---5---5---5---5--3---3-3-3-3-|
A -3---3---3---3----------------|
E ------------------------------|

CAMBIO

("Y si esto no es amor, ¿cómo se puede llamar?"):
G -------------------------------------------|
D -------------------------------------------|
A -6-6-6-6--8-8-8-8--10-10-10-10-10-10-10-10-|
E -------------------------------------------|


("¿Cómo te puedo decir, lo que no puedo explicar?"):
G -----------------------------7-------7----|
D -10----10-----7---7-------7----7---7---7--|
A ----10----10----7---7--5---------5--------|
E ------------------------------------------|

("Sólo siento, que te quiero y no comprendo"):
G -----8-------8-----------------------|
D ---8---8---8---7--8-8--6-6--5-5-5/0--|
A -6-------6---------------------------|
E -------------------------------------|

("Cómo he podido vivir sin ti...")
G -------------------------10-------------|
D --------------10---10--8----8--6-5---5--|
A ---10---10--8----8-----------------5----|
E -8----8---------------------------------|

("Cómo he podido vivir sin ti, hasta este momento"):
G ---------------------------------|
D --------------10---10--8---8-----|
A ---10---10--8----8-------8---8---|
E -8----8------------------------6-|

PUENTE (Se toca varias veces):

G ------10---------10----------------------|
D ---10----10---10----10--8---8---8---8----|
A -8----------8-------------8---8---8---8--|
E -----------------------------------------|

Luego tocas todo lo anteriormente escrito (los versos y el cambio).
Después viene esto:

("Cómo he podido vivir sin ti..."):
G ----------------------------------------------------------|
D ---8---8--6----6------6---6--4---4-------------3---3---3--|
A -6---6------6----6--4---4------4----4--3---3-----3---3----|
E -----------------------------------------3---3------------|


FIN:

("Cómo he podido vivir sin ti... hasta este momento."):
G -------------------------|
D -------8---------8-------|
A ----8----8----8----8-----|
E -6---------6---------6---|

Y esto es todo amigos. Fácil y sabrosa. Como dice un paisano mío, er
Conde der Guácharo: "Bolero arriba y merengue abajo, que es el
verdadero merengue". Que es aquel que invita a enamorar a las parejas
mientras se baila. De verdad se la quiero dedicar a una de las que
les mencioné al principio, pero no sé a quien. Y gual, al cabo que ni
quería... CUIDENSE, DIOS LOS BENDIGA Y HASTA LA PROXIMA!!!

Tablatura de guitarra de Todo me gusta de tí

(Wilfrido Vargas). Todos los acordes y notas de la canción Todo me gusta de tí de Wilfrido Vargas, letras de canciones, etc. Subir una tablatura