Nombre del artista: # A B C D E F G H I J K L M N Ñ O P Q R S T U V W X Y Z

Widinson

Volverte a ver

Am
Yo no sé cuando perdí…

Intro x2
Intro
e----------------------------------------------------
b-9/10------------9/10------------9/10---------------
g-----9-12-12-12-9----9-12-12-12-9----9-12-12-12-11-9
D----------------------------------------------------
A----------------------------------------------------
E----------------------------------------------------


                   Am
Yo no sé cuando perdí
                 G
El amor de ti mujer
                    F
Me hace falta tu querer
                   E
Tengo ganas de volverte a ver

Am
En mi vida hay un dolor
                   G
Y no lo puedo remediar
                      F
 vuelve pronto por favor,
                    E
 tengo ganas de volverte a ver


pre coro
       F              E
cada noche te extraño más cada (noche te extraño más)
      F               E
de seguro hoy no dormiré

coro
Am                G
Si necesito tu calor
                     F
Vuelve pronto por favor
                   E
Tengo ganas de volverte a ver
Am                 G
Si algo bueno pasará
                    F
Es que pronto volverás
                   E
Tengo ganas de volverte a ver

Intro
e----------------------------------------------------
b-9/10------------9/10------------9/10---------------
g-----9-12-12-12-9----9-12-12-12-9----9-12-12-12-11-9
D----------------------------------------------------
A----------------------------------------------------
E----------------------------------------------------

                   Am
Yo no sé cuando perdí
                 G
El amor de ti mujer
                    F
Me hace falta tu querer
                   E
Tengo ganas de volverte a ver

Am
En mi vida hay un dolor
                   G
Y no lo puedo remediar
                      F
 vuelve pronto por favor,
                    E
 tengo ganas de volverte a ver


pre coro
       F              E
cada noche te extraño más cada (noche te extraño más)
      F               E
de seguro hoy no dormiré

coro

Am                G
Si necesito tu calor
                     F
Vuelve pronto por favor
                   E
Tengo ganas de volverte a ver
Am                 G
Si algo bueno pasará
                    F
Es que pronto volverás
                   E
Tengo ganas de volverte a ver

    Am   G              Am
/Vuelve que te quiero vuelve
 G               Am   G              Am
Que te extraño vuelve todo va estar bien/



Solo x 2

e----------8-12-12--12--10-10-10-10-7-10-7-8-8-8-10-8-7-----------
b--------10-------13--13-------------------------------10-12-10---
g-9-9-9-9------------------------------------------------------8/9
D-----------------------------------------------------------------
A-----------------------------------------------------------------
E-----------------------------------------------------------------


pre coro
       F              E
cada noche te extraño más cada (noche te extraño más)
      F               E
de seguro hoy no dormiré

coro

Am                G
Si necesito tu calor
                     F
Vuelve pronto por favor
                   E
Tengo ganas de volverte a ver
Am                 G
Si algo bueno pasará
                    F
Es que pronto volverás
                   E
Tengo ganas de volverte a ver

   Am   G              Am
Vuelve que te quiero vuelve
 G               Am   G              Am
Que te extraño vuelve todo va estar bien

             G         Am
Vuelve  (Necesito tu calor)
                 G          Am
vuelve (Vuelve pronto por favor)
               G                  Am
vuelve (Tengo ganas de volverte a ver)
                           G       Am
todo va estar bien (Algo bueno pasará)
                 G          Am
Vuelve (se que pronto volverás)
               G                              Am
Vuelve (tengo ganas de volverte  volverte a veeeeeer)


Yo no se cuando perdí.


"no quiero que vuelvas para volverte a amar
solo quiero que lo hagas
para decirte que tu amor me hizo grande, fuerte y feliz
porfavor retoma tu camino"

Tablatura de guitarra de Volverte a ver

(Widinson). Todos los acordes y notas de la canción Volverte a ver de Widinson, letras de canciones, etc. Subir una tablatura