Nombre del artista: # A B C D E F G H I J K L M N Ñ O P Q R S T U V W X Y Z

Valija diplomatica

Espacios Siderales

Introducción: [C Am] x2 y Arpegio


Arpegio:

      C  Am     F        G           C      Am F   G
e -|---------------10-----------------------------------------|-
b -|-7/8--10-12-13----13-12-13-13-12-8-6--5-------------------|-
g -|----------------------------------------5-----5-5/7-9-7-5-|-
D -|------------------------------------------6/7-------------|-
A -|----------------------------------------------------------|-
E -|----------------------------------------------------------|-


Y Ahora Viene la letra:


C            Am
Danzaremos con la luna,
F            G
Danzaremos con el mar,
C            Am
Danzare con las estrellas,
F             G     part0.1 la tengo escrita al final de la
Danzare en este lugar.       pagina, al igual que part0.2 y
                             todas las demas


C             Am     part0.2
Solamente voy de paso,
F              G     part0.1
por aqui en este lugar.
C            Am
Solamente voy de paso,
F              G
voy de aqui al más alla.



C             Am      F                    G
Son Espacios Siderales,los que mi mente quiere abrir.
C             Am      F                    G         C  Am
Son Espacios Siderales,los que mi mente quiere abrir.



F          G               C  Am
Quiere Abrir, Quiere Abrir.

    part0.4
F          G               C  Am
Quiere Abrir, Quiere Abrir.

     F         G           C   Am  F        G
b -|---8/10--8/10--8--6--6/8----------8/10--8/10--8--6--5----|



C            Am
Danzaremos con la luna,
F            G      part0.1
Danzaremos con el mar,
C            Am
Danzare con las estrellas,
F             G     part0.1
Danzare en este lugar.



C           Am
Solamente voy de paso,
F              G     part0.3
voy de aqui al mas alla.
C            Am
Solamente voy de paso,
F              G     part0.3
por aqui en este lugar.



C             Am      F                    G
Son Espacios Siderales,los que mi mente quiere abrir.
C             Am      F                    G         C  Am
Son Espacios Siderales,los que mi mente quiere abrir.



F          G      part0.5  C  Am
Quiere Abrir, Quiere Abrir.

part0.6                                             part0.7
F            G              C   Am  F  G  C  Am F   G
  Quiere Abrir, Quiere Abrir.


C             Am      F                    G
Son Espacios Siderales,los que mi mente quiere abrir.
                                                     part0.1
C             Am      F                    G         C   Am
Son Espacios Siderales,los que mi mente quiere abrir.


F          G
Quiere Abrir, Quiere Abrir.     Y en otra Guitarra se escucha de
                                la Siguiente manera

             C          Am           F          G
              part0.1                   Quiere Abrir, Quiere Abrir
part0.8: e -|-3-3-0-0-0-|-3-3-0-0-0-|-3-3-3-3-3-|-5-5-3-0-0-|-
         b -|-1-1-1-0-1-|-1-1-1-0-1-|-1-1-1-1-1-|-3-3-0-0-3-|-
         g -|-0-0-0-0-0-|-2-2-2-2-2-|-2-2-2-2-2-|-4-4-4-4-4-|-
         D -|-2-2-2-2-2-|-2-2-2-2-2-|-3-3-3-3-3-|-5-5-5-5-5-|-
         A -|-3-3-3-3-3-|-----------|-----------|-----------|-
         E -|-----------|-----------|-----------|-----------|-


se repite una vez más part0.8 pero sin la Letra y
luego se sigue estos acordes para concluir:

      C     Am   F   G    C
e -|--------15--|-
b -|-----13-----|-
g -|--12--------|-



Partes: estas no vienen en la Intro,pero son requeridas
         en algunas partes de la letra

-part0.1:
e -|--------15--|-
b -|-----13-----|-
g -|--12--------|-


-part0.2:
e -|--15--------|-
b -|-----13-----|-
g -|--------12--|-


-part0.3:
e -|--------15-----|-
b -|-----13-----13-|-
g -|--12-----------|-


-part0.4:
e -|-------------------------|-
b -|--8/10--8/10--8--6--6/8--|-
g -|-------------------------|-


-part0.5:
e -|---------8--10--10/13--|-
b -|--8--10----------------|-
g -|-----------------------|-


-part0.6:
e -|--12/13--13--12-------------------------|-
b -|-----------------13--15--13--12--12/13--|-
g -|----------------------------------------|-


-part0.7:
e -|----------------------|-
b -|--10--10--8-----------|-
g -|-------------9--7--5--|-


Acordes:

       C   Am  F   G
e -|---0---0---1---3---|-
b -|---1---1---1---3---|-
g -|---0---2---2---4---|-
D -|---2---2---3---5---|-
A -|---3---X---3---5---|-
E -|---X---X---1---3---|-

__Y ese es todo el tema.
  Me fige en cada detalle para hacer una buena transcripción,
  espero que les guste y que les haya servido de ayuda.
  Saludos.

Tablatura de guitarra de Espacios Siderales

(Valija diplomatica). Todos los acordes y notas de la canción Espacios Siderales de Valija diplomatica, letras de canciones, etc. Subir una tablatura