Nombre del artista: # A B C D E F G H I J K L M N Ñ O P Q R S T U V W X Y Z

Vago

De que el amor apesta

INTRO (ASI SE ESCUCHA)

|-------------------------------
|-------------------------10~~~~
|---10--12--12/10---------------
|-----------------12------------
|-------------------------------
|-------------------------------

|-------------------------------
|-------------------------------
|----12^13~~-12-----------------
|-------------------------------
|-------------------------------
|-------------------------------

|-------------------------------------
|--------------10~-10------15-15-14-14
|-----10--12--------------------------
|--12---------------------------------
|-------------------------------------
|-------------------------------------

|--------------------------15-15-14-14
|--------------10~-10-----------------
|-----10--12--------------------------
|--12---------------------------------
|-------------------------------------
|-------------------------------------

|-------------------------------------
|-12/14-12---10/12--------------------
|------------------12-10/12-----------
|----------------------------12--10~~~
|-------------------------------------
|-------------------------------------


LOS TONO SE REPITEN EN EL SIGUIEN TE ORDEN

|--F---| |---D---|  |----A#M----|  |----C---|

|--D---| |----A#M----|  |----C---|

CORO (PERO LLEGO EL DIA,. ....ETC.)

|---D--| ------------- | |-----C-----||----A#M----||-----C-----|



MUCHAS GRACIAS.

Tablatura de guitarra de De que el amor apesta

(Vago). Todos los acordes y notas de la canción De que el amor apesta de Vago, letras de canciones, etc. Subir una tablatura