Nombre del artista: # A B C D E F G H I J K L M N Ñ O P Q R S T U V W X Y Z

V8

Reina Ciega

INTRO:

   Bm            A  G  D   Bm             G       A
e|------------------------+--------------------------|
B|------------------------+--------------------------|x4
G|---------------2-----2--+--------------------------|
D|-----4-0--0----2-----0--+-----4-0--0----5--0-------|
A|-2-2--------4--0--5-----+-2-2--------4--5----4--7--|
E|------------------3-----+---------------3-------5--|


B5               G5      A5
Con los pies sobre rotas veredas,
B5           G5  A5
de custodiados barrios
B5                 G5  A5
Desperté viendo a la reina ciega,
B5         G5  A5
Revolcarse en el barro.


 A5              B5
Matando el cuerpo de quien la quizo auxiliar;
A5             F5#
Y consintiendo a quien goza con su mal
Pues no sabe amar:

COMO INTRO x 2

No quiere amar.


Me alejé de la densa esfera,
Que adormece en su llanto.
Para oir de la palabra eterna,
Comprensión y encanto.


Lenguas de fuego vibran junto al sembrador,
Quien ya está presto para cosechar amor.


SOLO GUITARRA


Comprendí que el miedo a la muerte,
Sólo es para el culpable.
Que sin más que creerse un cuerpo;
Nunca sus manos abre.

Lenguas de fuego, vibran junto al sembrador,
Quién ya está presto a sembrar amor.

COMO INTRO

´Darse es amor´. 


 
SOLO GUITARRA:
e|---------------------------------------------------------------------------------------------|
B|--7-------8--------10-------8----------------7-8---------7-8----7---7---7---7---7------------|
G|--9/(11)--10/(12)--12/(14)--10/(12)---9/(11)------9/(11)------9---9---9---9---9---9/(11)9~--|
D|---------------------------------------------------------------------------------------------|
A|---------------------------------------------------------------------------------------------|
E|---------------------------------------------------------------------------------------------|

e|------------------------------------------------------------------|
B|--10/(12)-10^7-7-10/(12)--+-7^10^7---------+------7---------------|
G|--------------------------+--------9/(11)--+-%%%----9/(11)9^7-9--|
D|--------------------------+----------------+----------------------|
A|------------------------------------------------------------------|
E|------------------------------------------------------------------|

e|---------------------------------------19/(21)--19/(21)19--19-18-18-18-18~--|
B|-----------------------------------------------------------------------------|
G|-----------------------------------------------------------------------------|
D|--9^7------------------------------7~----------------------------------------|
A|------9-8-7-----------------7-9-10-------------------------------------------|
E|------------7-7/10---7-9-10--------------------------------------------------|

e|--------------------------------------------------------------------------------------------------|
B|-----------------------------7-----------------------7-8-7^8^7------------------------------------|
G|--------4-7--------4-7-9/(11)--9/(11)9^7-9/(11)9~------------7----9----7-----------6-7-6^7^6----|
D|----4-7--------4-7------------------------------------------------9----7-------11--------------7--|
A|--5----------5--------------------------------------------------------------10-----9--------------|
E|--------------------------------------------------------------------------------------------------|

e|------------------------17-----------17--------17-18-----17-18-18/(20)18/(20)18/(20)--|
B|--12--15/(17)/(18)15~------17-19-20-----19-20--------20--------------------------------|
G|----------------------------------------------------------------------------------------|
D|----------------------------------------------------------------------------------------|
A|----------------------------------------------------------------------------------------|
E|----------------------------------------------------------------------------------------|

e|-------------------------------------------------------|
B|---------------------------------10/(12)10------------|
G|--9/(11)-9/(11)aa-9/(11)-9/(11)------------------------|
D|--------------------------------------------12-11-9-7--|
A|-------------------------------------------------------|
E|-------------------------------------------------------|

Tablatura de guitarra de Reina Ciega

(V8). Todos los acordes y notas de la canción Reina Ciega de V8, letras de canciones, etc. Subir una tablatura