Nombre del artista: # A B C D E F G H I J K L M N Ñ O P Q R S T U V W X Y Z

V8

Muy cansado estoy

INTRO:
e|----------------------------------------|
B|----------------------------------------|x4
G|----------------------------------------|
D|--12--11---12--14---12--11--9--7--9--5--|
A|--0---0----0---0----0---0---0--0--0--0--|
E|----------------------------------------|

B5 / C5# / D5 / E5

e|----------------------------------------------10^7----7--7^5---7----------------------------
B|---------------------------------------------------10--------7----10^7---7--7^5---5---------
G|---7------7----9/(11)-7---7^4---4-%--9^7---7---------------------------9--------7----9^7---9
D|-7---9--7---9-----------------7----------9-----------------------------------------------9--
A|--------------------------------------------------------------------------------------------
E|--------------------------------------------------------------------------------------------
                                 
e|-----------------------7------10-7--10-7----------------------|
B|-------------------------10-7-------------7-10-7--7-10/(12)~--|
G|----7------7----9/(11)----------------------------------------|
D|--7---9--7---9------------------------------------------------|
A|--------------------------------------------------------------|
E|--------------------------------------------------------------|

B5
Lunes , y nuevamente
D5        E5      B5
En el trabajo estoy
B5
Sólo recuerdos momentos de ayer
D5        E5      B5
Vivo el bajón de hoy.

E5 / D5
Para continuar en esta
A5 / G5
Estúpida senda
B5 / A5        E5
Debo gritar que...

Muy cansado estoy.

e|--------------------------------------------------------------------------------------------
B|--------------------------------------------------------------------------------------------
G|-------------------------7------------------------------------7-----------------------------
D|--9------------------------9-7----------------------------------9-7-------------------------
A|--9--------9-----------9-------9------9---------9-----------9-------9------9-------9---9---9
E|--7--7-7-7-7--7-7-7^10-----------10-9-7--7--7-7-7--7-7-7^10-----------10-9-7-7-7-7-7-7-7-7-7

E5 / D5
A5 / G5
B5 / A5
E5

Recorriendo las calles
Sólo hallé corrupción
Gente apurada que quiere ganar
sembrando sólo dolor.
Ya no soy parte de las calles
                  E5~
Entre nubes y alcohol.

  sexo...        Muerte...                                    La corrupción... 
e|-----------------------------------------------------------+---------7-10^7------11/(12)--|
B|-------------------10/(12)-%-10/(12)10^7-10/(12)-10/(12)~-+-10/(12)---------%%%----------|
G|---9/(11)-9-7-----------------------------------------------------------------------------|
D|--------------9~--------------------------------------------------------------------------|
A|------------------------------------------------------------------------------------------|
E|------------------------------------------------------------------------------------------|

´sexo y ardor´                 

´Muerte y dolor´

´La corrupción; fuerza de hoy´.


SOLO GUITARRA

COMO INTRO

Lunes y nuevamente
En el trabajo estoy
Sólo recuerdo momentos de ayer
Vivo el bajón de hoy
Para continuar
En esta estúpida senda
Debo gritar que...
Muy cansado estoy.

e|--------------------------------------------------------------------------------------------
B|--------------------------------------------------------------------------------------------
G|-------------------------7------------------------------------7-----------------------------
D|--9------------------------9-7----------------------------------9-7-------------------------
A|--9--------9-----------9-------9------9---------9-----------9-------9------9-------9---9---9
E|--7--7-7-7-7--7-7-7^10-----------10-9-7--7--7-7-7--7-7-7^10-----------10-9-7-7-7-7-7-7-7-7-7


E5 / D5
A5 / G5
B5 / A5
E5

Tablatura de guitarra de Muy cansado estoy

(V8). Todos los acordes y notas de la canción Muy cansado estoy de V8, letras de canciones, etc. Subir una tablatura