Nombre del artista: # A B C D E F G H I J K L M N Ñ O P Q R S T U V W X Y Z

Tanque

La ciudad del chisme

INTRO - riff 1

riff 1
/-----------------------------------/
/---1h5--5h6--6h3--3h6--5-----------/
/-----------------------------------/
/-----------------------------------/
/-----------------------------------/
/-----------------------------------/

/-----------------------------------/
/---1h5--5h6--6h3--3h1--1-1-1-------/
/-----------------------------------/
/-----------------------------------/
/-----------------------------------/
/-----------------------------------/



Dices que eres de buena familia
Que tu apellido es respetado en tu nivel social
riff 1
Criticas a tus amigas por haber perdido la virginidad
Pero cuando estas borracha la idea del sexo no te parece tan mal


CORO:
D5      D#5         C5         D5
A todos y a todas quieres conocer
D#5         C5            Bb5
Sin tu careta nadie te puede ver
D5      D#5         C5       D5
Tu inseguridad del que diran
D#5         C5            Bb5
Es lo que rige tu forma de actuar


D5              D#5        C5         D5
Te quejas que vives en la ciudad del chisme
D5             D#5         C5       Bb5
Pero te encanta hablar demas de los demas
D5             D#5      C5      D5
Solo compras esas caras revistas
D5             D#5      C5              Bb5
Para ver que gorda sale la katy en la pagina social


CORO:

D5      D#5         C5         D5
A todos y a todas quieres conocer
D#5         C5            Bb5
Sin tu careta nadie te puede ver
D5      D#5         C5       D5
Tu inseguridad del que diran
D#5         C5            Bb5
Es lo que rige tu forma de actuar


D5         D#5       C5        D5
Pasado mañana cumples ya tus treinta
D5              D#5       C5                  Bb5
Abrazas a tu madre porque aun no te has podido casar
D5              D#5           C5          D5
La plata de tu viejo tranquila te sustenta
D5               D#5              C5                     Bb5
Hasta que algun dia por fin te cases con alguien de su edad

    D5    D#5   C5    Bb5
/-----------------------------------/
/---5-----6-----3-----1-------------/
/---7-----8-----5-----3-------------/
/---7-----8-----5-----3-------------/
/-----------------------------------/
/-----------------------------------/

5 = quinta

Gracias..
Alguna duda.. titodlt@hotmail.com

Tablatura de guitarra de La ciudad del chisme

(Tanque). Todos los acordes y notas de la canción La ciudad del chisme de Tanque, letras de canciones, etc. Subir una tablatura