Nombre del artista: # A B C D E F G H I J K L M N Ñ O P Q R S T U V W X Y Z

Tanque

Dale José

intro

E5-C5-D5

verso

E5                    C5    D5     E5
Hoy preste mis acuarelas a jose
                 C5      D5     E5
Cuando acabe te las devuelvo
                      C5   D5     E5
Tienes algo mas que es mio tambien
                C5    D5   E5
Tres colores y un esfero
                  C5  D5     E5
Te gastaste todo el color azul
              C5   D5    E5
Mentira no estaba nuevo
             C5       D5      E5
Mezclaste colores en el blanco
             C5      D5      E5
Que yo sepa eso no me acuerdo


Intermedio:

E-C

Esto lo repiten 4 veces y en la cuarta vez tocan E-C  CC BB

La primera guitarra lo toca asi:
          E                      C
e/-------------------------------------------------/
B/-------------------------------------------------/
G/-------------------------------------------------/
D/--14-14-14-14-14-14-14-14---10--10-----------------/
A/--14-14-14-14-14-14-14-14---10--10-----------------/
E/--12-12-12-12-12-12-12-12----8---8-----------------/

La otra guitarra toca asi:

          E                C
e/-------------------------------------------------/
B/-------------------------------------------------/
G/-------------------------------------------------/
D/--2-2-2-2-2-2-2-2----10--10-------------------------/
A/--2-2-2-2-2-2-2-2----10--10-------------------------/
E/--0-0-0-0-0-0-0-0-----8---8-------------------------/

luego para entrar al coro las dos guitarras tocan con fuerza:

e/------------------------------------/
B/------------------------------------/
G/------------------------------------/
D/--10-10----9-9----------------------/
A/--10-10----9-9----------------------/
E/--8--8-----7-7----------------------/



Coro:

La guitarra del Muller hace:

F#5                 A5
ahora sí que me cabrié
F#5             G5
dale josé, dale josé
F#5            A5
a la salida vas a ver
F#5            G5
dale josé, dale josé
F#5        A5
yo soy puñetazo
F#5            G5
dale josé, dale josé
F#5                   A5
mucho mejor que el lucho lazo
F#5            F#5
dale josé, dale josé

Mientras que la otra guitarra hace:

F#5                 G5 C5 G5
ahora sí que me cabrié
F#5          G5
dale josé, dale josé
F#5                 G5 C5 G5
a la salida vas a ver
F#5             G5
dale josé, dale josé
F#5     G5 C5 G5
yo soy puñetazo
F#5            G5
dale josé, dale josé
F#5                 G5  C5  G5
mucho mejor que el lucho lazo
F#5            G5
dale josé, dale josé



fuí al baño y me encontré con josé

ya estoy listo, aquí me quedo

no tengo miedo de lo que me vas a hacer

como sabes, aún no te pego

me puse en guardia y me resvalé

ahora sí ahora te sueno

me pegó y luego echo a correr

si no corro me ponen cero


CORO.

Y el outro es igual que el intro pero con fuerza cada nota.


Saludos espero que les sirva.

Alguna duda
titodlt@hotmail.com

Tablatura de guitarra de Dale José

(Tanque). Todos los acordes y notas de la canción Dale José de Tanque, letras de canciones, etc. Subir una tablatura