Nombre del artista: # A B C D E F G H I J K L M N Ñ O P Q R S T U V W X Y Z

el Parque

Entre sangre y arena

ntroducción
       C             G                E 
E----0--0--0--------1--1---1----------0--0--0-----------------
B----1--1----1------0--0-----0--------0--0----0---------------
G----0--0-----------0--0--------------0--0--------------------
D-------------------------------------------------------------
A-3-------------------------------------------------2/3-2-0---
E----------------3-----------------0--------------------------

   
C       G             Em
Mi herida se cierra 
            C         G               Em
y entierro demonios bajo la tierra 
Am           Em    Am           Em  
el miedo se hereda la sangre se quema


G               Dm
no quiero ver 
          F   
tus ojos con hambre de fe
G               Dm
la hierva que nos vio crecer
F                            Em
nos hundira entre sangre y arena 


C      G           Em
tu vida me llega 
            C          G              Em
inerte ante la impotencia y la pena 
Am       Em        Am          Em
eternas promesas que acaben la guerra 

No quier ver...


Solo

E----------------------i--------------------------------------------
B----------------------I--------------------------------------------
G----------------------I--------------------------------------------
D----------------------I--------------------------------------------
A----9-7----9-7----9-7-I---9-7---9-7---9-7-----9-10-12----9-10-12---
E--7------7-----7------I-7-----7-----7-------7----------7-----------

E--7--7-7-7-8--5---3-2-3---5------------------0-2-0----------------
B----------------------------3---3-3--1-3/4-----------1--0---------
G------------------------------------------------------------------
D------------------------------------------------------------------
A------------------------------------------------------------------
E------------------------------------------------------------------

E------9--11--9-7------------------
B----8------------8----------------
G--7----------------9-11~----------
D----------------------------------
A----------------------------------
E----------------------------------

Tablatura de guitarra de Entre sangre y arena

(el Parque). Todos los acordes y notas de la canción Entre sangre y arena de el Parque, letras de canciones, etc. Subir una tablatura