Nombre del artista: # A B C D E F G H I J K L M N Ñ O P Q R S T U V W X Y Z

el Parque

Cuantas Noches

ESTA PIEZA LA TOCAN CON DOS GUITARRAS SIN DISTORSION 
GUITARRA#1:principal
GUITARAA#2:guitarra ritmica
      
esto es lo que toca la guitarra#1

INTRO: (RIFF 1)

e--3---3---|---1---1---1---|---0---0---1---1---1---5---5---|-3-|
b--3---3---|---3---3---3---|---3---3---3---3---3---5---5---|-5-|
g--2---2---|---2---2---2---|---2---2---2---2---2---4---4---|-4-|


e--7---7---7---7---7---|
b--8---8---8---8---8---|
g--8---8---8---8---8---|

VERSO: la guitarra#1 toca el riff 1( el mismo de la introducion.

PUENTE 1 ( 6 veces ) riff2

e---1--0--0--
b---3--3--3--
g---2--2--2--
D---0--0--0--
A---0--0--0--
E---0--0--0--

CORO riff 3 

e--3--3--1--1--1-|-6--6--8--8--8--8--
b--3--3--3--3--3-|-6--6--8--8--8--8--
g--2--2--2--2--2-|-5--5--7--7--7--7--

PUENTE 2 riff4

e-----------------------------
b--3--3--2--2--2--2--2--0--1--
g--3--3--2--2--3--2--0-----3--
D--3--3--2--2--------2-----2--
A--1--1--0--0-----------------
E-----------------------------

SOLO riff5

e----------------5~---5-3---5-8-5-8--5-5--3~---------------|
b----5--6--5--3-----------6-------------------3#2#3--------|
g--4-------------------------------------------------0--2~-|
D----------------------------------------------------------|
A----------------------------------------------------------|
E----------------------------------------------------------|

e----11/sl-13--13-12------10-10--8----------------------|
b---10/sl-12---------10~--8-8----------8-10-10-8--------|
g--9-------------------------------10------------10-7---|
D-------------------------------------------------------|
A-------------------------------------------------------|
E-------------------------------------------------------|
      ESTA PARTE SE TOCA MUY RAPIDO
e-------------------------------------------------------|
b-----0-0-2-0-2-3-0-2-3-2-3-----------------------------|
g--0-2-2------------------------------------------------|
D-------------------------------------------------------|
A-------------------------------------------------------|
E-------------------------------------------------------|

LA GUITARRA DOS TOCA LOS SIGUIENTES ACORDES

D5 Dm A2 D    F        G             D5 Dm A2 D 
         ...Maldita miseria alejate
  F                G           D5 Dm A2 Dm
 ?Cuantas noches no has dormido 
  F               G      
 con las velas encendidas
D5 Dm A5 Dm  F          G              Dm       
 al mirar    como crece sin querer mi soledad?

  A2-Dm-Dm (6 veces)


 D5  D  A2 D   F          G
 Otra vez      vuelves a gritar   
 D5 Dm A2      Dm        F   G 
 y  tu corazon sangrando ...como sangra
 D5 Dm A2 Dm  F            G
 Mirame       y aprende a llorar
 D5  Dm      A2       Dm     F   G
 con la luna el mundo cambia ...como cambia

   
   B-A-A7-Dm      


D5 Dm A2 D  F             G               D5  Dm A2 D 
 Tu         ahogaras los golpes con tu mirada 
 F           G            D5 D  A2 D 
 nunca mas seran sentidos 
 F             G
 son las voces del olvido
 D5  D  A2 D   F            G           Dm
 sin lugar     moriras al pie de tu altar


 A2-Dm-Dm (6 veces)



 D5  D  A2 D   F          G
 Otra vez      vuelves a gritar   
 D5 Dm A2      Dm        F   G 
 y  tu corazon sangrando ...como sangra
 D5 Dm A2 Dm  F            G
 Mirame       y aprende a llorar
 D5  Dm      A2       Dm     F   G
 con la luna el mundo cambia ...como cambia


B     A       A7        Dm
 Y el dolor algun dia se ira..


 EL SOLO SE ACONPA~A DE LOS SIGUIENTES ACORDES

 D5-Dm-A2-D -F-G
   
   D5 Dm A2 F  G  A7 A  B
e--3--1--0--1--3--0--0--1
g--3--3--2--1--3--2--2--3
b--2--2--1--2--4--0--2--3
D--0--0--0--3--5--2--2--3
A--0--0--0--3--5--0--0--1
E--0--0--0--1--3--0--0--1
 
si tienes alguna duda sobre la cancion escribeme

Tablatura de guitarra de Cuantas Noches

(el Parque). Todos los acordes y notas de la canción Cuantas Noches de el Parque, letras de canciones, etc. Subir una tablatura