Nombre del artista: # A B C D E F G H I J K L M N Ń O P Q R S T U V W X Y Z

Offside

No se que pasó

ESTA ES MI PRIMERA TRANSCRIPCION EN LA CUERDA ESPERO QUE ESTE BIEN
ES UNAS DE MIS CANCIONES FAVORITAS Y BUENO AUNQUE ME COSTO MUCHO
 SACAR LA PARTE DEL PUNTEO
AL FIN LE TENGO LA MUSICA DE UNA BUENA
BANDA,ESPERO QUE SEA DE SU AGRADO,
TAMBIEN ESTA DEDICADA A UNA PERSONA ESPECIAL QUE ENTRO A MI CORAZON


  A         E        Bm            E
6/-----------------------------------------------------------/
5/-----------------------------------------------------------/
4/-7-7-7----7-7-7--------------7---7-----------------------7-/
3/--6-7-6----6-7-6---9-7-6-7-6-------9-7-6-7-6-4-6-4-2-4-0---/x2
2/-----------------------------------------------------------/
1/-----------------------------------------------------------/

A             E
 No se que paso
                Bm
 no se que sucedio
           E
 tal vez fui yo quien cometio el error

A                   E                     Bm
 y como iba yo a saber que ya no estaba bien
                E
 y es que tu talvez me dejaste de querer

A                  E                    Bm
 y como iba a imaginar que todo ya iba mal
                   E
 talvez nada de esto fue realidad
A               E                        Bm
 y no se que paso no se que diablos sucedio
              E                     A
 tal vez fui yo quien cometio el error

A     E               Bm
 ayudame a poder cambiar
      E                      A
 ayudame ya no quiero ser igual
      E               Bm
 ayudame a poder cambiar
      E                      A
 ayudame ya no quiero ser igual


 A         E        Bm            E
6/-----------------------------------------------------------/
5/-----------------------------------------------------------/
4/-7-7-7----7-7-7--------------7---7-----------------------7-/
3/--6-6-6----6-6-6---9-7-6-7-6-------9-7-6-7-6-4-6-4-2-4-0---/x2
2/-----------------------------------------------------------/
1/-----------------------------------------------------------/


A                  E                  Bm
 tal vez fue lo mejor era decirnos adios
                  E
 tal vez lo nuestro jamas se termino
A               E                        Bm
 y no se que paso no se que diablos sucedio
              E                      A
 tal vez fui yo quien cometio el error


A     E               Bm
 ayudame a poder cambiar
      E                      A
 ayudame ya no quiero ser igual
      E               Bm
 ayudame a poder cambiar
      E                      A     E    Bm
 ayudame ya no quiero ser igual
  E                  A     E   Bm
 no quiero ser ya igual
  E                  A
 no quiero ser ya igual

Tablatura de guitarra de No se que pasó

(Offside). Todos los acordes y notas de la canción No se que pasó de Offside, letras de canciones, etc. Subir una tablatura