Nombre del artista: # A B C D E F G H I J K L M N Ñ O P Q R S T U V W X Y Z

M.A.M.

Lo Ves

Intro

Básicamente son las notas SI-LA-SOL tocando la 6ta, 1ra y 2da cuerda al aire.
Resuelve la intro con el SOL y el LA común, dándole fuerza.

e -----0-0--- -----0---- -----0---
B ----0---0-- ----0-0--- ----0-0--
G ---8-----8- ---6---0-- ---4---4-
D --9-------- --7-----6- --5------
A -9--------- -7-------- -5-------
E ----------- ---------- ---------
     SI           LA        SOL

e-----0-0--- -----0----  -----0--- -3-  -5---
B ----0---0-- ----0-0--- ----0-0-- -3-  -5---
G ---8-----8- ---6---0-- ---4---4- -4-  -6---
D --9-------- --7-----6- --5------ -5-  -7---
A -9--------- -7-------- -5------- -5-  -7---
E ----------- ---------- --------- -3-  -5---
      SI          LA       SOL     SOL   LA

SI#     LA#         SOL#
La razon por que estamos aca
SI#     LA#           SOL#
es muy clara y tenes que escuchar
SI#      LA#           SOL#
con la transparencia que te da
SI#      LA#           SOL#    SOL-LA
como llegamos con la musica

los corazones tienen que entender
la intuicion nos acompañara
renaceremos una vez y mas
estamos convencidos que sera

FA#5      MIm5
porq tenes que dudar
FA#5      MIm5
no te enojes con la realidad
FA#5      MIm5
abri tus ojos para poder mirar
SOL    SOL-LA
lo ves

la razon por la que estamos aca
es muy clara y tenes que escuchar
con la trasnparencia que te da
como llegamos con la musica

los corazones tienen que entender
la intuicion nos acompañara
renaceremos y una vez y mas
estamos convencidos q sera

Porque tenes que dudar
no te enojes con la realidad
abri tus ojos para poder mirar
lo ves, lo ves

No lo dejes escapar
abri tus ojos una vez y mas
los pensamientos tenes que aclarar
irte al desierto y no dejes de pensar
lo ves, lo ves
lo ves, lo ves


SI#, LA#, SOL# estas notas van durante el tema y aca solo
se tocan al aire las 1ra y 2da cuerda, la 6ta se toca
segun coresponda a la nota.
Presten atencion en las resoluciones de SOL-LA que va cambiendo en el tema.
Esperos les sirva.saludos
mendo_ing@hotmail.com

Tablatura de guitarra de Lo Ves

(M.A.M.). Todos los acordes y notas de la canción Lo Ves de M.A.M., letras de canciones, etc. Subir una tablatura