Nombre del artista: # A B C D E F G H I J K L M N Ñ O P Q R S T U V W X Y Z

Hazel

Instante Eterno

Bueno una rolita muy chida de Hazel para enamorados jeje


Intro: acordes de acompañamiento  G Em C D

e-----------------------------------
B---8-7-8-10-8---8-10-12-10-8-7-8-7-
G-----------------------------------

e-------------------------------------------------------
B---13-12-13-15-13---13-13-15-17---18-17-15-13-15-13-12-
G-------------------------------------------------------

Ahora entra la armónica
Se escucha en estos tonos

e---10v---8-7-8-7---7-3---3-7-5-7-5-7-8-10v-
B-------------------------------------------
G-------------------------------------------

e---8-7-8-7---7-3---3-15-12-15-12---10-12-10-
B--------------------------------------------
G--------------------------------------------

G          Em      C        D
Diario te miro y tu no tedas cuenta

G          Em       C         D
Que como romeo asechando a Julieta

G          Em     C               D D D
Viendo pasar ese instante que es eterno

       G          Em           C        D    G  DD
Como quisiera arrebatarte tan solo una mirada

       G          Em        C     D        G-D
Como quisiera apretarte sentir latir tu corazón tu corazón

Solo:
Va acompañado de los siguientes acordes
G Em C D

e---------------------------------------------------------
B---8-7-8-10-12-10-12-13-15-13-12-12-12-13-15-13-13-12-10-
G---------------------------------------------------------

e--------------------------------------------------------------
B---10---8-7-8-10-12-10-12-13-15-13-12-12-12-13-15-13-13-12-10-
G--------------------------------------------------------------

e-----------------10-12-13-15/17-15-15-15-15-13-15/19-17-17-17-17-
B---10-8-10-12-13-------------------------------------------------
G-----------------------------------------------------------------

e---15-17/20-19-19-19-19---------------
B------------------------8-7-5-3-5-7-5-
G--------------------------------------

e-------------------------------------------------
B---8-7-5-8-7-5---10-8-7-10-8-7---12-10-8-12-10-8-
G-------------------------------------------------


e---8-8-7-7-8-8-10-10-
B--------------------- x3
G---------------------

E---8-8-7-7-8-7-7------
B-----------------10-8-
G----------------------

Otravas entra la armonica

e---10v-8-7-8-7---7-3---3-15-12-15-12---10-12-10-
B------------------------------------------------
G------------------------------------------------

G        Em      C         D
Son suspiros te sigo como sombra

G      Em      C          D
Te alucino perdida en mis brazos

G           Em       C            D    DD
Todas las noches fundirme en tu regazo

       G          Em           C        D    G  DD
Como quisiera arrebatarte tan solo una mirada

       G          Em        C     D        G-D
Como quisiera apretarte sentir latir tu corazón tu corazón


Se repite el intro dos veces
e-----------------------------------
B---8-7-8-10-8---8-10-12-10-8-7-8-7-
G-----------------------------------

e-------------------------------------------------------
B---13-12-13-15-13---13-13-15-17---18-17-15-13-15-13-12-
G-------------------------------------------------------

Solo
El mismo acompañamiento

e---------------------------------------------------------
B---8-7-8-10-12-10-12-13-15-13-12-12-12-13-15-13-13-12-10-
G---------------------------------------------------------

e--------------------------------------------------------------
B---10---8-7-8-10-12-10-12-13-15-13-12-12-12-13-15-13-13-12-10-
G--------------------------------------------------------------

e-----------------10-12-13-15/17-15-15-15-15-13-15/19-17-17-17-17-
B---10-8-10-12-13-------------------------------------------------
G-----------------------------------------------------------------

e---15-17/20-19-19-19-19---------------
B------------------------8-7-5-3-5-7-5-
G--------------------------------------

e-------------------------------------------------
B---8-7-5-8-7-5---10-8-7-10-8-7---12-10-8-12-10-8-
G-------------------------------------------------


e---8-8-7-7-8-8-10-10-
B--------------------- x3
G---------------------

E---8-8-7-7-8-7-7------
B-----------------10-8-
G----------------------

Final se repite dos veces

e----------------------------------------
B---888-777-555-777---101010-888-777-888-
G----------------------------------------

e-------------------------------------------------------
B---121212-101010-888-101010---131313-121212-101010-888-
G-------------------------------------------------------

Sale es toda la rola errores comentarios mandenlos a mi correo.

le mando un saludo a MARIO, EDGAR Y todos los rokeros de corazon.

sale banda sigan apoyando al Rock Mexicano

Tablatura de guitarra de Instante Eterno

(Hazel). Todos los acordes y notas de la canción Instante Eterno de Hazel, letras de canciones, etc. Subir una tablatura