Nombre del artista: # A B C D E F G H I J K L M N Ñ O P Q R S T U V W X Y Z

EclipsE

Grito Sagrado

HYMN

EN D

A-5--9-5-----7-4--5-7-5--9----------------------0------0--
D-7------7-5----------7----9-7-6-5-2-7-4-0--5-4-2--5-4-2--
G-7-------------------------------------------------------
B---------------------------------------------------------

A---------------------------------------------------------
D-0-2-4-55----5-2-2-4---5-2-2--4--------------------------
G----------22---------2----------2-1-0--------------------
B---------------------------------------------------------

A---------------------------------------------------------
D---------------------------------------------------------
G-----/7/x8--------------------/9/x8----------------------
B-7-5----- -7-7-10-10-7-7--8-7-------5-5-8-8-5-5----------

A---------------------------------------------------------
D---------------------------------------------------------
G-----7777----9999------11X4-------12X4-------14X4--------
B-7-5------87------10-8------12-10------14-12------15-----


A---------------------------------------------------------
D-12-14---------------14-12---12-14---------------14-12---
G-------11-14X3-12-11---------------11-14X3-12-11---------
B---------------------------------------------------------

A----------------------5-5-------------------------------
D----12----12----12----7-7-------------------------------
G-11----11----11-------7-7-------------------------------
B--------------------------------------------------------

GRITO SAGRADO


E--5-----3-----------5-----3------------------------------
A--7--4--5--5-4------7--4--5--5-4-------------------------
D--7--6--5--7-6------7--6--5--7-6-------------------------
G-----6-----7-6---------6-----7-6-------------------------


    A            G            A          G   D-C#
G---------------------------------------------------------
B--10------12-10-8-----------10----12-10-8----------------
E-----10-9---------12-10-9-10--10-9---------10-9----------


A                       G                          A
No hay tiempo para perder no hay tiempo para ganar
                      G          D    C#
La gente en esta ciudad no tiene tiempo
(Las mismas notas)
Acelerado otra vez entre vender y comprar
No hay tiempo para tus hijos y tus nietos


F#                    F                   E  (A-/2-6-7-9-)
Quisieras poder comprar un poco de libertad, de libertad
D                  E
Nadie te puede vender la paz de adentro no.

(A C# G D C#) X 2

CORO X 2
     A              G
Libertad grito sagrado
     A               G
Libertad tesoro preciado
     A                 G
Libertad de un tiempo tirano
                 B               E
Todo el que la busque la encontrara.


Miradas serias se ven en la senda peatonal
Caminan para llegar a ningún lado
Mientras el tiempo se va el hacha en la mano esta
Para hacer leña del árbol que no ha dado
Frutos que puedan llevar hacia el camino de la eternidad
Hay una vida mejor te esta esperando.

A C# G D C#


CORO X 1



A                G     A              G
Todo tiene su tiempo todo tiene su lugar
A               G                B               E
Y si estas durmiendo quizás sea tiempo de despertar
A                 G          A         G
Un segundo en la vida en la vida un segundo se va
F                 G            A
Todo lo que sembrares cosechara. . .

CORO X 1
Levanta un tono a B

FINAL:
E---------------7--7---
A---------------9--9---
D---9---9---9---9--9---
G-8---8---8------------
B----------------------
e----------------------

Tablatura de guitarra de Grito Sagrado

(EclipsE). Todos los acordes y notas de la canción Grito Sagrado de EclipsE, letras de canciones, etc. Subir una tablatura