Nombre del artista: # A B C D E F G H I J K L M N Ñ O P Q R S T U V W X Y Z

Café Guancasco

La pena del general

Intro:
Capo en el tercer traste

     Em         Am         B            Em
e|-|----------------------------------------------|-|
B|-|--------------------------------3-------------|-|
G|-|----------------2---------4---4-4------0------|-|
D|-|---2-0----------2---------4---4--------2------|-|
A|-|-------2-1---0--0-0-0-1-2-2--------2---2------|-|
E|-|-0---------3-------------------------0--------|-|

Em                  Am
Hoy declaro que mi amor no ha muerto
B                      Am
Aunque el pueblo está medio terco
Em             Am
Si lo dirigen puros cuervos
B                      Am
Con razón está medio tuerto.

Hoy declaro que mi patria es bella
Pero si te ponen querellas
Se amilanan los sentimientos
Se subastan nuestras estrellas

Se desmoran hijos y gusanos
Se extienden sobre ti las alimañas
Y una tenaza te arrebata el sueño
Y un puñal con tu sangre  te salpica
Mientras se despedaza tu estandarte,
¡Alta es la noche y Morazán vigila!

     Em         Am         B            Em
e|-|----------------------------------------------|-|
B|-|--------------------------------3-------------|-|
G|-|----------------2---------4---4-4------0------|-|
D|-|---2-0----------2---------4---4--------2------|-|
A|-|-------2-1---0--0-0-0-1-2-2--------2---2------|-|
E|-|-0---------3-------------------------0--------|-|


Em                  Am
Hoy se fornican las intenciones
B                    Am
De los buenos por los ladrones
Em                    Am
Se alimentan los gobernantes
B                 Am
Con dinero gringo arrogante

Hoy se regalan mil pesadillas
Por las sombras de los recuerdos
Pero puedes gritarle al viento
 Que eres “libre”, entre comillas.

Ya viene el tigre enarbolando un hacha
Vienen a devorarte las entrañas
Vienen a dividir la estrella
Vienen, vienen…

Pequeña América olorosa
A clavarte en la cruz, a desollarte

A tumbar el metal de tu bandera
Alta es la noche y Morazán espera

CORO

Em     Am       B
Y alta la noche es
       Am
Mi General deciles
Em     Am     B
¡Dejen ya de ser
        Am
Del águila serviles!


Y alta la noche es
Mi General se queja
¡Déjenme, déjenme
Bajar para aliviar sus penas!

     Em            Am         B            Em
e|-|----------------------------------------------|-|
B|-|--------------------------------3-------------|-|
G|-|----------------2---------4---4-4------0------|-|
D|-|---2-0----------2---------4---4--------2------|-|
A|-|-------2-1---0--0-0-0-1-2-2--------2---2------|-|
E|-|-0---------3-------------------------0--------|-|

Em            Am
Invasores llenaron tu morada
B                    Am
Y te partieron como fruta muerta
Em                Am
Y otros sellaron sobre tus espaldas
B                   Am
Los dientes de una estirpe sanguinaria

Y otros te saquearon en los puertos
Cargando sangre sobre tus dolores
Es hoy, ayer, mañana
Tú lo sabes, tú lo sabes, tú lo sabes, ¡Tú lo sabes bieeeen!

Coro
( Alta la noche es... )

B
     Hermanos amanece y Morazán… vigila.

     Em            Am         B            Em
e|-|---------------------------------------0------|-|
B|-|--------------------------------3------0------|-|
G|-|----------------2---------4---4-4------0------|-|
D|-|---2-0----------2---------4---4--------2------|-|
A|-|-------2-1---0--0-0-0-1-2-2--------2---2------|-|
E|-|-0---------3---------------------------0------|-|










Tablatura por Raúl Bocanegra.

Tablatura de guitarra de La pena del general

(Café Guancasco). Todos los acordes y notas de la canción La pena del general de Café Guancasco, letras de canciones, etc. Subir una tablatura